A B C D E F G H I J K L M N O P Q R S T U V X Y Z 0-9
Jaco Pastorius

Início > Jaco Pasto... > acordes

Jaco Pastorius

Donna lee

Dificultad:AdelantadoAdelantado

por diegobass

tuner corregir añadir para songbook version para impresion version de texto version rtf e-mail
acordestablaturabaixobateríaarmónicaflautacavacopiano Guitar Pro
acordes

Donna lee

	   
G|--12-13-12------------------------------|------------------------------                  
D|-----------15-14-13---------------------|---------------------10------- 
A|--------------------16\15-13-12------8--|-9-11-9-8-------8-11----10-8-- 
E|--------------------------------8-11----|----------11-10--------------- 
 
G------|-------------4-8-6-----5-3---------|-----0-3-1-----------10-9----| 
D------|-----------6-------3-6-----1h2p1---|---1-------1-3--8-11------10-| 
A-7-4--|-6-----4-7-----------------------4-|-3---------------------------| 
E------|---5h6-----------------------------|-----------------------------| 
 
G|-/8~---------8-----11-9-------|----------------------------------10-11- 
D|-----11-10-8---11-------13-11-|-10-10-11-12-13-11-10-------10-13------- 
A|------------------------------|----------------------13-12------------- 
E|------------------------------|---------------------------------------- 
 
G-13-11-10----|----------------------------------|-8-6---------------- 
D----------13-|-12-11-10-------------------------|-------6-10-8---6-5- 
A-------------|----------12-13-11---6--9\\\6---8-|-----8--------6----- 
E-------------|-------------------8--------------|-------------------- 
 
G------8-9-11-9-8----|-------12-13-12------------------------------| 
D-8-11------------11-|-10-------------15-14-13---------------------| 
A--------------------|-------------------------16\15-13-12------8--| 
E--------------------|-------------------------------------8-11----| 
 
G|------------------------------------|----------------------------------- 
D|---------------------10-------------|--------7-8---------11-13-11-10---- 
A|-9-11-9-8-------8-11----10-8---10-8-|-7-8-10-----11\10-8-------------13- 
E|----------11-10---------------------|----------------------------------- 
 
G----------------|-----------|---------------------8-9-8-9---------------| 
D----------------|-----------|-10-9-10-11-12-11-12---------13-12-11\10-8-| 
A-11-13-11-10----|--------10-|-------------------------------------------| 
E-------------12-|-13--------|-------------------------------------------| 
 
G|-----------------------------12-10----|------------------------------ 
D|-6-8-6-5-6-8-6-5---------6-9-------13-|-12-11-10--------------------- 
A|-----------------8---5-8--------------|----------13-12-9-8------8-11- 
E|-------------------7------------------|--------------------11-9------ 
 
G---------------|---------------------------------10-12-13----------| 
D-10-8----------|--------------13--10x------11-13----------13-10----| 
A------11p10----|-11--13-10-11---------11x-----------------------11-| 
E------------11-|---------------------------------------------------| 
                                                               solo  
                                             (bar lines out from now on)                 
G|--9/10-x-x-x-----------------11--------|-------12-9---------<5>--------| 
D|--------------13-11-10-----------------|------------10-12---<5>--------| 
A|-----------------------13-12-----12-10-|-(10)--------------------------| 
E|---------------------------------------|------------------0-----0----6-| 
 
G|---------------------------11-12-14h15---19-|-16--------------- 
D|---------------11-12-13h14------------------|----17------------ 
A|------7-8-9h10------------------------------|-------18-16p15--- 
E|--8-9---------------------------------------|------------------ 
 
G-0-15-----------------------|------17----17--------17-16-15~\-| 
D------16----------19-18--16-|-15------14----13----------------| 
A---------18-16-15-----------|---------------------------------| 
E----------------------------|------------------13-------------| 
 
G|--\12---------19-20-17--16-15-13--------|----------------12-10---------- 
D|------13-10----------------------16\15--|--13-11-12-13-9-------10-13-11- 
A|----------------------------------------|------------------------------- 
E|----------------------------------------|------------------------------- 
 
G------------------|-----17-20-17-------17------------------------------- 
D-------10---------|--19----------19-16----19-16----19-16-------16------- 
A----12----13------|-----------------------------18-------18-15----18-15- 
E-13----------12---|----------------------------------------------------- 
 
G|-----------------------------|--------------13-11--------15-18-17-----| 
D|-----------------------------|--------10-13--------15-16--------------| 
A|----18-15-------15-----------|--10-11-----------------------------17--| 
E|-17-------17-14----17-14-11--|----------------------------------------| 
 
G|-17--17/18\17--17--|--0-17-18-17----------16-15----------------| 
D|-18--18/19\18--18--|-------------20-18-17-------18-17-15\14----| 
A|-------------------|----------------------------------------16-| 
E|-------------------|-------------------------------------------| 
 
G|-------12-15-13---------------------|-12-15-14-13-------12----17------- 
D|----14----------16-14---------------|----------------13----14-------20- 
A|-15-------------------17-15---------|-------------15-------------16---- 
E|----------------------------18-16~--|---------------------------------- 
 
G-20--|--12--13-15-12-13-15-------------12-13-----|-------------15---- 
D-----|---------------------11-12-14-15-----------|-------13-17----17- 
A-----|---------------------------------------14--|-14-15------------- 
E-----|-------------------------------------------|------------------- 
 
G-14----13----|--x-17-------------------15-12-14------------------| 
D----16----15-|-------20-19p18p17--x-17----------16-13-----11-----| 
A-------------|----------------------------------------15---------| 
E-------------|-----------------------------------------------13--| 
 
G|-------11-15-12-----|--13p12p11p10--------------------------| 
D|----11--------------|--------------13-11--------------------| 
A|-15-------------14--|--------------------16\15-13-12------8-| 
E|--------------------|--------------------------------8-11---| 
 
G|------------------------9-12--|------------------------------------| 
D|---------------------10-------|--------13-10-11----10--------------| 
A|-9-11-9-8-------9-11----------|-----11----------12-----13-11p10----| 
E|----------11-10---------------|--13-----------------------------13-| 
 
G|-------------11-------------------------|----------------------10-9---- 
D|----------13----13----------------------|-------8-0-------8-11------10- 
A|----11-14----------14---11-10-8---------|-11-10-------7-8-------------- 
E|-12-----------------------------11-9-8--|------------------------------ 
 
    |             |                   |                  | 
G|--8-8-12-12-8-8----|---11-----------12-12-17-17-12-12-----| 
D|----------------8--|------14-13-11--------------------12--| 
A|-------------------|--------------------------------------| 
E|-------------------|--------------------------------------| 
 
G|-------12-15-14-------------13----12----------------------------------- 
D|----14----------16-------15----15----15-14p13p12--11-12----10---------- 
A|-15-------------------13--------------------------------13----13-11-10- 
E|----------------------------------------------------------------------- 
 
G|---------|--<7>--<12>--|--10-8-----------------11--------14-15---- 
D|---------|--<9>--<9>---|-------9-8----------13-------------------- 
A|--8-7----|-------------|-----------11-9-8/9-------12--15-------16- 
E|------0--|-------------|------------------------------------------ 
 
G-/19-17----|-------------10-8-9------------8------------|-12-9------- 
D-----------|--------8-11--------10-----------11-10-8-7--|------10---- 
A--------19-|----8h9----------------9-8------------------|---------12- 
E-----------|----------------------------11--------------|------------ 
 
G-----------------------6-/9-------------------------------| 
D--0------------------7------12-10----------------------13-| 
A----3----------3/4-7--------------13-11-10-------11-13----| 
E------4-3-6-5------------------------------13-12----------| 
 
G|--------5-3------------|----------------12----15-13-12--------------| 
D|----3-5-----6-5--------|---------8-9-------15----------13-----------| 
A|--4-------------6-3----|-8-10-11-----10-------------------15-13-12--| 
E|--------------------4--|--------------------------------------------|    
                                     __|___ 
                                     |    | 
G|--13-11-9-10-------------|--11-9-7----------------|-9-7-5-6---------| 
D|-------------11-8--------|---------8--------------|---------7-4-----| 
A|------------------11-10--|-----------10-7------7--|-------------7-6-| 
E|-------------------------|----------------10-9----|-----------------| 
 
G|-7-5-3-4--|----8-9-8--------------------------|------------------------| 
D|----------|----------11-10-9------------------|-----------------6------| 
A|----------|------------------12\11-9--7-----4-|-5-7-5-4-----4-7---6-4--| 
E|----------|-----------------------------4-7---|---------7-6------------| 
                               __|__ 
                               |   | 
G|-------------------4-----------------|------------------|-------6-5--- 
D|-----------------6---7-----6-4-------|---------4--------|---4-7-----6- 
A|-3-1-2-----0-4-7-------4-7-----5-4-2-|-0-----6---7----4-|-5----------- 
E|-------1h2---------------------------|---4-7--------7---|------------- 
 
G--/4~---------4----|--7-5---------------------------6--7-9-7-6----------| 
D-------7-6-4----7--|------9-7-6-6-7-8-9-7-6-----6-9------------9-8-7-6--| 
A-------------------|------------------------9-8-------------------------| 
E-------------------|----------------------------------------------------| 
 
G|------------------|-------------------------------------------------| 
D|------------------|----9-7----------------------9-10-12-10-9--------| 
A|--8-9-7---4--6\---|----------7-11-9----7p6-9-12--------------12-11--| 
E|--------7---------|--9-----9---------7------------------------------| 
 
G|--8-9-8-------------------------------------------------| 
D|--------11-10-9----------------------------------6------| 
A|----------------12\11-9-7------4-5-7-5-4-----4-7---6-4--| 
E|---------------------------4-7-----------7-6------------| 
   __|__  
   |   | 
G|--------------------------------------------|--<4>-----| 
D|-----------2-4--------7-9-7-6---------------|--<4>-----| 
A|-6-4-3-4-6-----7\6-4----------9-7-9-7-6-----|----------| 
E|----------------------------------------8-9-|-------4--| 
 
G|-------------------------------------------|-------------------------- 
D|----6-5-6-7-8-7-8---9-10-9-10-11-12-11-12--|-13-14-13-14-15-16-15-16-- 
A|--6----------------------------------------|-------------------------- 
E|-------------------------------------------|-------------------------- 
 
G|-12-13-12-13-14-15-14-15---18-16-----------|---------------13----------| 
D|---------------------------------19\18-16--|--15--------------14-11----| 
A|-------------------------------------------|-----17\16-14-----------12-| 
E|-------------------------------------------|---------------------------|   
                                                       | 
G|-------------------------------14--14//20\\---|-----<7>-------| 
D|--14-11-13-14--(14)---------13-----13//19\\---|-----<9>-------| 
A|---------------11-12-13--14-------------------|---------------| 
E|----------------------------------------------|--0-------<9>--| 
 
 
 
 

	  

Solicitar el vídeo de "Donna lee" - Descargar Donna lee mp3

No existe una video leccione para esta canción

solicitar
140

Envie sus comentários.

0 comentários

 
LosAcordes
Buscar
auto avanzar rasgueos aumentar disminuir cambiar color esconder acordes gráficos
losacordes exhibir acordes losacordes youTube video losacordes ocultar tabs losacordes cambiar notación losacordes ir hacia arriba losacordes