A B C D E F G H I J K L M N O P Q R S T U V X Y Z 0-9
Interpol

Início > Interpol > acordes

Interpol

Evil

Dificultad:ExpertoExperto

por weezer pillows

tuner corregir añadir para songbook version para impresion version de texto version rtf e-mail
acordestablaturabaixobateríaarmónicaflautacavacopiano Guitar Pro
acordes

Evil

	  Evil (bass tab) 
by Interpol 

STANDARD TUNING 

Intro / Verse 
G|-----------------------------| 
D|-----------------------------| 
A|--8--8-8--------------5-5----| 
E|---------6-6-6-5--5-5-----5--| 

Chorus 
G|---------------------------------------------------| 
D|---------------------------------------------------| 
A|--8-8-8-8-8-8-8-8-5-5-5-5-5-5-5-5------------------| 
E|----------------------------------6-6-6-6-6-6-6-6--| 

G|---------------------------------------------------| 
D|---------------------------------------------------| 
A|---------------------------------------------------| 
E|--5-5-5-5-5-5-5-5-8-8-8-8-8-8-8-8-6-6-6-6-6-6-6-6--| 

	  

Solicitar el vídeo de "Evil" - Descargar Evil mp3

No existe una video leccione para esta canción

solicitar
140

Envie sus comentários.

0 comentários

 
LosAcordes
Buscar
auto avanzar rasgueos aumentar disminuir cambiar color esconder acordes gráficos
losacordes exhibir acordes losacordes youTube video losacordes ocultar tabs losacordes cambiar notación losacordes ir hacia arriba losacordes