A B C D E F G H I J K L M N O P Q R S T U V X Y Z 0-9
Coldplay

Início > Coldplay > acordes

Coldplay

The Scientist

Dificultad:FácilFácil

tuner corregir añadir para songbook version para impresion version de texto version rtf e-mail
acordestablaturabaixobateriaarmónicaflautacavacopiano Guitar Pro
acordes

The Scientist

Áño: 2002 - Álbum: A Rush of Blood to the Head

Tono:  Dm
	  


 - A Rush Of Blood To The  Head


Standard Tuning


VERSE:
-----

G|----------------------------------------------------------------|
D|----------------------------------------------------------------|
A|-5-5-5-5-5-5-5-5-1-1-1-1-1-1-1-3-----------------3-3-3-3-3-3-3-3|
E|---------------------------------1-1-1-1-1-1-1-1----------------| 



CHORUS:
------

G|--------------------------------------------------|---------------||---------------|
D|--------------------------------------------------|---------------||---------------|
A|-1-1-1-1-1-1-1-1-1-1-1-1-1-1-1-3------------------|3-3-3-3-3-3-3-3||3-3-3-3-3-3-3-3|
E|----------------------------------1-1-1-1-1-1-1-1-|---------------||---------------|



POST-CHORUS:
-----------

G|----------------------------------------------------------------|
D|----------------------------------------------------------------|
A|-----------------1-1-1-1-1-1-1-3--------------------------------|
E|-1-1-1-1-1-1-1-1-----------------1-1-1-1-1-1-1-1-1-1-1-1-1-1-1-1|


END:
---

G|----------------------------------------------------------------|
D|----------------------------------------------------------------|
A|-5-------------1------------------------------------------------|
E|---------------------------------1------------------------------|
 
 
INTRO        (NO BASS)
VERSE        (NO BASS)
CHORUS       (NO BASS)
POST-CHORUS1 (NO BASS)
VERSE        x4
CHORUS       x2
POST-CHORUS  x1
VERSE        x4
END          x1
LYRICS:
------

Come up to meet you, tell you I'm sorry
You don't know how lovely you are

I had to find you
Tell you I need you
Tell you I set you apart

Tell me your secrets
And ask me you questions
Oh let's go back to the start

Running in circles
Coming in tales
Heads are a science apart

Nobody said it was easy
It's such a shame for us to part
Nobody said it was easy
No one ever said it would be this hard

Oh take me back to the start

I was just guessing
At numbers and figures
Pulling your puzzles apart

Questions of science
Science and progress
Do not speak as loud as my heart

Tell me you love me
Come back and haunt me
Oh and I rush to the start

Running in circles
Chasing tails
And coming back as we are

Nobody said it was easy
Oh it's such a shame for us to part
Nobody said it was easy
No one ever said it would be so hard

I'm going back to the start

----------------------------------------------------------------

DA HAIDA

	  

Solicitar el vídeo de "The Scientist" - Descargar The Scientist mp3

No existe una video leccione para esta canción

solicitar
140

Envie sus comentários.

3 comentários

davidquintana09davidquintana09
hace 383 años atrás
i hateeeeeeeeeeeeeeeeee this page i cant copy is horrible
pianoboe105pianoboe105
hace 1163 años atrás
I'm pretty sure all of the Aminors should be fsus2's and in"oh take me back to the start," the chord on "start" should be an Fmajor
MAUIWOWWEMAUIWOWWE
hace 1493 años atrás
I love this song its my girlfriends favorites. well i'm the 1st so haha
 
LosAcordes
Buscar
auto avanzar rasgueos aumentar disminuir cambiar color esconder acordes gráficos
losacordes exhibir acordes losacordes youTube video losacordes ocultar tabs losacordes cambiar notación losacordes ir hacia arriba losacordes