Rojo

Início > Rojo > acordes

Me Amas Igual Acordes

Rojo

Dificultad:ExpertoExperto

por lucicamargo

tuner correct add songbook print version text version salvar en e-mail
acordesukuleletablaturabajobateríaarmónicaflautacavacopiano Guitar Pro
acordes

Me Amas Igual

(Emmanuel Espinosa)

	  Hola a todos!! 
Mmm aquí esta la canción de “rojo – me amas igual “ 
Que Dios les bendiga 


Me amas igual 
A pesar de mis errores 
Me amas igual 
Aunque no, no soy perfecto 
Me amas igual 
Y me abrazas otra vez 


              C 
Me amas igual 

Aunque a veces pienso lento 
              A 
Me amas igual 

Aunque sigo en el proceso 
              F 
Me amas igual 
      D 
Y por eso te diré 


:CORO: 

G--------------------------0------------- ¡ 
D--------------4--------------9-------2-- ¡(x2) 
A----2------55---5-----77---------33----3 ! 
E-33---3--------------------------------- ¡ 

G--------------------------0------------- ¡-------------------- ¡ 
D--------------4--------------9-------2-- ¡--------2--------2---¡ 
A----2------55---5-----77---------33----3 !---00—3------00-3--- ¡ 
E-33---3--------------------------------- ¡---------------------¡ 

G------------- ¡ 
D------------- ¡ 
A--5-5-5-5-5-- ! 
E------------- ¡ 


                C 
Me amas igual! 

Aunque a veces dude mucho, 
                A 
Me amas igual! 

Aunque a veces no te escucho, 
                F 
Me amas igual! 
     D 
Sigues creyendo en mí 




Me amas igual! 

Y quiero ser tu reflejo, 
                A A 
 Me amas igual! 

Quiero darte mis secretos, 

G-------- ¡ 
D-------- ¡ 
A-------- ¡ 
E-13s5--- ¡ 

               F 
Me amas igual! 
       D 
Y por eso te diré 



:CORO: 

:SOLO: 

G--------- ¡ 
D-2-2----- ¡(x2) 
A-----3-3- ¡ 
E--------- ¡ 

:PUENTE: 

E                      C 
Me amas igual! 
E               C 
Me amas igual! 
                     E 
Tú tienes La culpa de esta dicha 
                  C 
De mi esperanza cada día 
                  E 
Y cada mañana aL despertarme 
                 C 
Voy a decidir siempre adorarte 

:coro: 

:FINAL: 

G------------------------------------------------------ ¡ 
D-5-5-5-5-5--------5-5-5-5-5--------5-5-5-5-5--------5- ¡ 
A-----------3-3-3------------3-3-3------------3-3-3---- ¡ 
E------------------------------------------------------ ¡
	  

No existe una video leccione para esta canción

request
Aumentar uno tonoAumentar uno tono
Aumentar uno semi-tonoAumentar uno semi-tono
Disminuir uno semi-tonoDisminuir uno semi-tono
Disminuir uno tonoDisminuir uno semi-tono
LosAcordes
Buscar
auto avanzar rasgueos aumentar disminuir cambiar color esconder acordes simplificar gráficos columnas
losacordes exhibir acordes losacordes youTube video losacordes ocultar tabs losacordes ir hacia arriba losacordes